Несколько аккордов.

Здесь обсуждаем музыку из серии Silent Hill.

Модераторы: Xrust, dr. Doom, Mystic

Сейчас этот форум просматривают: нет зарегистрированных пользователей и гости: 1

Алиса
violent angel
violent angel
Аватара пользователя
 
Профиль
Сообщения: 1144
Зарегистрирован:
16 окт 2005, 19:43
Пол: Не определен
Блог: Перейти к блогу (0)
Reputation point: 383

Несколько аккордов.

Новое сообщение Алиса » 17 окт 2005, 20:56 |

Akira Yamaoka - Theme of Laura

From Silent Hill 2 OST


Intro
Guitar One
e|------------------------------------------------|
B|------------------------------------------------|
G|------------------------------------------------|
D|-2-2-2-2-2-x-4-4-4-4-4-x-5-5-5-5-5--5h7-7-5-5-4-|
A|-3-3-3-3-3-x-5-5-5-5-5-x-7-7-7-7-7--7-7-7-7-7-5-|
E|------------------------------------------------|
repeat: then last time:
e|-----------------------------------------------|
B|-----------------------------------------------|
G|-----------------------------------------------|
D|-2-2-2-2-2-x-4-4-4-4-4-x-2-2-2-2-2-x-4-4-4-4-4-|
A|-3-3-3-3-3-x-5-5-5-5-5-x-3-3-3-3-3-x-5-5-5-5-5-|
E|-----------------------------------------------|

Guitar two lead bit: w/phase and delay effects (@ 0:12)
e|------------------------7-7-5----7------7------|
B|----5---7----8--7---5---------5----------------|
G|--4--------------------------------------------|


========================
Next, Guitar one plays the intro rhythm part

Guitar two:
main riff
e|----------------------|------------------------|
B|-----3^---------------|------------------------|
G|--------4----2---4^-0-|-------4--2--------7--4-|
D|---5------------------|-4--5--------2-/5-------|
A|-3--------------------|------------------------|
E|----------------------|------------------------|

e|----------------------|------------------------|
B|-----3^---------------|------------------------|
G|--------4----2---4^-0-|-------4--2-/7----/9-4--|
D|---5------------------|-4--5-------------------|
A|-3--------------------|------------------------|
E|----------------------|------------------------|

Weird sitar thing lead part: (0:32)
e|------------------------------------------|
B|-5----7----8------7-5-----3-----5-----7---|
G|------------------------------------------|
D|------------------------------------------|
A|------------------------------------------|
E|------------------------------------------|

===========================
(0:41)
Guitar one can play an Em chord throughout this part

Guitar two
e|-------------------0-------------------|
B|-------------------0-------------------|
G|-------------------0-------------------|
D|-------------------2-------------------|
A|-----2-----2-2-----2----------4--3--2--|
E|-0---0---0-0-0--0--0-------0-----------|


============================
(0:59)
Guitar one
e|-3~-----2~--------------------0~-------------------3-|
B|-1~-----3~--------------------0~-----------------1---|
G|-2~-----2~--------------------0~---------------2-----|
D|-0~-----0~--------------------2~---------------------|
A|------------------------------2~---------------------|
E|------------------------------0~---------------------|
||
||
||Guitar two
e|-----------------------------------------------------|
B|-------(0)--5/(7)/8--7--7-8-7-5----\0----------------|
G|-----------------------------------------------------|
D|-----------------------------------------------------|
A|-----------------------------------------------------|
E|-----------------------------------------------------|

One
e|-3~-----2~--------------------0~--------------------------|
B|-1~-----3~--------------------0~--------------8-10-8-7-5--|
G|-2~-----2~--------------------0~--------------------------|
D|-0~-----0~--------------------2~--------------------------|
A|------------------------------2~--------------------------|
E|------------------------------0~--------------------------|
||
||
||Two
e|----------------------------------------------------------|
B|-------(0)--5/(7)/8--7--7-8-7-5----/10-----(7)------------|
G|----------------------------------------------------------|
D|----------------------------------------------------------|
A|----------------------------------------------------------|
E|----------------------------------------------------------|
(1:18)

One
e|-----------------------------|-----------------------------|
B|---------------/8--7-7-h8--5-|---------------/8--8-7-h8--5-|
G|-----------------------------|-----------------------------|
D|-----------------------------|-----------------------------|
A|-----------------------------|-----------------------------|
E|-----------------------------|-----------------------------|
||
||
||Two
e|------------5-8~-------------|-----------5-8~--------------|
B|--------5-8------------------|-------5-8-------------------|
G|---5-7-----------------------|---5-7-----------------------|
D|-7---------------------------|-7---------------------------|
A|-----------------------------|-----------------------------|
E|-----------------------------|-----------------------------|

One (from violin ----------------->
e|-----------------------------|-------------------------12-10-|
B|---------------/8--8-7h8-7h8-|-9-----------9p8h9/12----------|
G|-----------------------------|-------------------------------|
D|-----------------------------|-------------------------------|
A|-----------------------------|-------------------------------|
E|-----------------------------|-------------------------------|
||
||
||Two
e|------------5-8~-------------|-------------------------------|
B|--------5-8------------------|-------------------------------|
G|---5-7-----------------------|-------------------------------|
D|-7---------------------------|2-2-2-2-2-2-2-2-2-2-2-2-2-2-2-2|
A|-----------------------------|2-2-2-2-2-2-2-2-2-2-2-2-2-2-2-2|
E|-----------------------------|0-0-0-0-0-0-0-0-0-0-0-0-0-0-0-0|


==============

(1:37)
Chords (repeat)
e|--------------------------------|
B|--------------------------------|
G|--------------------------------|
D|5-5-5-5-4-4-4-4-2-2-2-2-4-4-4-4-|
A|7-7-7-7-5-5-5-5-3-3-3-3-5-5-5-5-|
E|--------------------------------|

Lead (repeat)
e|--------------------------------------------------------------------|
B|--------------------------------------------------------------------|
G|-12-12-12-11-11-12-/14-9-----6-8-9---9-9---8--9-8-9----9---8--6-8-9-|
D|---------------------------9-------------9---------------9----------|
A|--------------------------------------------------------------------|
E|--------------------------------------------------------------------|

Violin fill (2:17)
e|---------------------|
B|-7h8/10---8p7\5------|
G|------------------4--|


==================
At 2:19, go back to intro chord riff.

At 2:29, theres a little violin part:
e|------------------------------|-----------------------------------------|
B|-5h7/8~----7p5\3~---5h7p5~----|-5h7/8~---7h8/10~----8p7\5-----7/8\7~----|
G|------------------------------|-----------------------------------------|

Then at 2:39 its back to the main riff and the part that follows

finish on:
e|-0-|
B|-0-|
G|-0-|
D|-2-|
A|-2-|
E|-0-|

Cradle of Forest

Symbols used:
x = muted string
rit. = gradually slow down ("ritardando")


Chords used:

Код:Em G C B7 D/A Cadd9 Am Cmaj7
-0----3----0---------2----0------------------
-0----0----1----0----3----3------1----0------
-0----0----0----2----2----0------2----0------
-2----0----2----1----0----2------2----2------
-2----2----3----2----0----3------0----3------
-0----3--------------------------------------

Standard tuning: (low to high) EADGBe

Vocals: Joe Romersa


Intro:
======

Em G C B7
|-----------------7-----------------------------------------------|
|-7-------------------------------8---------------7---------------|
|-----9---------------9---------------9---------------9-------8---|
|-----------------------------------------------------------------|
|-----------------------------------------------------------------|
|-----------------------------------------------------------------| x4

Verse:
======

(Em) (G)
|-----------------0-------------------------------3---------------
|---------------------0-------------------------------0-----------
|-------------0-----------0-------------------0-----------0-------
|---------2-------------------2-----------0-------------------0---
|-----2-------------------------------2---------------------------
|-0-------------------------------3-------------------------------

(D/A) ©
-----------------2-------------------------------0---------------|
-------------3-------3-----------------------1-------1-----------|
---------2---------------2---------------0---------------0-------|
-----0-----------------------0-------2-----------------------2---|
-0-------------------------------3-------------------------------|
-----------------------------------------------------------------| x2

Strummin' part [w/ approximate rhythm]

Em / / / / / / / / G / / / / / / / /
|-0-------------------------------3-------------------------------
|-0-------------------------------0-------------------------------
|-0-------------------------------0-------------------------------
|-2-------------------------------0-------------------------------
|-2-------------------------------2-------------------------------
|-0-------------------------------3-------------------------------

D/A / / / / / / / / C / / / / /
-2-------------------------------0---------------0---0-----------|
-3-------------------------------1---------------3---1-----------|
-2-------------------------------0---------------0---0-----------|
-0-------------------------------2---------------2---2-----------|
-0-------------------------------3---------------3---3-----------|
-----------------------------------------------------------------| x3

Em / / / / / / / / G / / / / / / / /
-0-------------------------------3-------------------------------
-0-------------------------------0-------------------------------
-0-------------------------------0-------------------------------
-2-------------------------------0-------------------------------
-2-------------------------------2-------------------------------
-0-------------------------------3-------------------------------

D/A / / / / / / / / C
-2-------------------------------0-------------------------------
-3-------------------------------1-------------------------------
-2-------------------------------0-------------------------------
-0-------------------------------2-------------------------------
-0-------------------------------3-------------------------------
-----------------------------------------------------------------

Chorus:
=======

Em G D/A Am Am G C B7 x2

After playing verse and chorus once, play the intro again.

Repeat verse and chorus, then play this:

Em
|---------------------------0-----|
|---------------------------0-----|
|-----------0-0-0-----------0-----|
|-x-2-2-2-2-2-2-2-x-x-x-x-x-------|
|-x-2-2-2-2-2-2-2-x-x-x-x-x-------|
|-x-0-0-0-0-0-0-0-x-x-x-x-x-------| x3

Em
---------------0-----------------
---------------0-----------------
-----------0-0-0-----------------
-x-2-2-2-2-2-2-------------------
-x-2-2-2-2-2-2-------------------
-x-0-0-0-0-0-0-------------------

Strings solo:
=============

Em G C B7
|-14--15------14--------12-----------------15--------------------
|---------12-------------------12--15--13------12-----13--12-----
|----------------------------------------------------------------
|----------------------------------------------------------------
|----------------------------------------------------------------
|----------------------------------------------------------------

Em G C B7
-14--15------14--------12-----14-15-17--------15-14---------------|
---------12-----------------------------------------17-----16-----|
------------------------------------------------------------------|
------------------------------------------------------------------|
------------------------------------------------------------------|
------------------------------------------------------------------| x2

Post-solo:
==========

(Em) (G) (D/A) (Am)
-----------------------------------------------------------------
-------------0---------------------------3-----------------------
-------------------------0-------------------2---------------2---
---------2-------------------0-------0-----------2-------2-------
-----2---------------2-----------0-------------------0-----------
-0---------------3-----------------------------------------------

(Am) (G) (Cmaj7) (B7)
-----------------------------------------------------------------
-------------1-----------0-------------------0-------------------
---------2-------------------0-----------0---------------2-------
-----2-------------------------------2---------------1-------1---
-0-------------------2-----------3---------------2---------------
-----------------3-----------------------------------------------

Chorus:
=======

Em G D/A Am Am G C B7 x4

Then play Intro again.

Outro:
======

(Em) (G) (D/A) (Am)
-----------------------------------------------------------------
-------------0---------------------------3-----------------------
-------------------------0-------------------2---------------2---
---------2-------------------0-------0-----------2-------2-------
-----2---------------2-----------0-------------------0-----------
-0---------------3-----------------------------------------------

(Am) (G) (Cmaj7) (B7)
-----------------------------------------------------------------
-------------1-----------0-------------------0-------------------
---------2-------------------0-----------0---------------2-------
-----2-------------------------------2---------------1-------1---
-0-------------------2-----------3---------------2---------------
-----------------3-----------------------------------------------


(Em) (G) (D/A) (Am)
-----------------------------------------------------------------
-------------0---------------------------3-----------------------
-------------------------0-------------------2---------------2---
---------2-------------------0-------0-----------2-------2-------
-----2---------------2-----------0-------------------0-----------
-0---------------3-----------------------------------------------

(Am) (G) (Cmaj7) (B7)
-----------------------------------------------------------------
-------------1-----------0-------------------0-------------------
---------2-------------------0-----------0---------------2-------
-----2-------------------------------2---------------1-------1---
-0-------------------2-----------3---------------2---------------
-----------------3-----------------------------------------------
rit.

-----------------------------------------------------------------
-----------------------------------------------------------------
-----------------------------------------------------------------
-----------------------------------------------------------------
-----------------------------------------------------------------
--0--------------------------------------------------------------

Composer: Akira Yamaoka
Performed By: Melissa Williamson
Length: 3:45
Lyrics thanks to:dark solid snake
Chords:Poppy82

Em
(0:29)Blue sky to forever
G
(0:31)Green grass blows in the wind, dancing
Em
(0:36)It would be a much better sight,
G
(0:40)With you, With me.
Em
(0:43)If you hadn't met me
G
(0:45)I'd be fine on my own, baby
Em G
(0:50)Never felt so lonely then you came along

Am G
(0:55)So now what should I do?
Am G
(0:59)I'm strung out addicted to you
Am G
(1:02)My body aches now that you're gone
Bmaj
(1:05)My supply fell through
Em G Em G Am
(1:10)You gladly gave me everything you had and more
Bmaj
(1:15)You craved my happiness,
Em G Em G Am
(1:17)When you made me feel joy it made you smile
Bmaj
(1:21)But now I feel your stress.
Em G Em G Am
(1:24)Love was never meant to be such a crazy affair, no?
Bmaj
(1:29)And who has time for tears?
Em G Em Am
(1:31)I never thought I'd sit around and cry for your love,
Bmaj
(1:38)'till now...

--Musical Solo--

(1:58)Oh I feel your stress

(2:05)Come on,
(2:07)Oh, who has time for tears?
(2:11)Oh, my baby

(2:21)Yeah yeah

(2:34)Yeah yeah yeah yeah yeah yeah

(2:46)I feel your stress

[You're not here]




Mxtabs [http://www.mxtabs.net]
Akira Yamaoka - Promise
From Silent Hill 2 OST

Standard tuning


Intro/main riff
e|---------------------------------|
B|-----1-------1-------1-------0---|
G|-------------------0---0---0---0-|
D|---2---2---3---3---------0-------|
A|-0-------0-------3---------------|
E|---------------------------------|

After the intro is played twice, the rest of the instruments kick in.
These chords are played over the main riff:

e|-x-x-x-x-x-|-x-x-x-x-x-x-|-x-x-x-x-x-|---------------|
B|-1-1-1-1-1-|-1-1-1-1-1-1-|-1-1-1-1-1-|---0-0-0-0-0-0-|
G|-2-2-2-2-2-|-2-2-2-2-2-2-|-0-0-0-0-0-|---0-0-0-0-0-0-|
D|-2-2-2-2-2-|-2/3-3-3-3-3-|-2-2-2-2-2-|-2-0-0-0-0-0-0-|
A|-0-0-0-0-0-|-0-0-0-0-0-0-|-3-3-3-3-3-|-3-2-2-2-2-2-2-|
E|-----------|-------------|-----------|-0-3-3-3-3-3-3-|

and there's also a little lead bit, which has some nice effects on it:
Fill 1:
e|----------|-15-------|----------|----------|
B|-15-17----|----13----|-15-17----|----------|
G|----------|----------|----------|-17-12----|

================
Same chords as intro.

Plus lead part:
e|---------------|-------------|
B|-/8--8-8\6-5---|-3-3h5-3\1-1-|
G|---------------|-------------|

e|-------------------|-------------------|
B|-/8--8-8/(10)-8----|-10-/13--12-(\)--8-|
G|-------------------|-------------------|

e|---------------|-------------|
B|-/8--8-8\6-5---|-3-3h5-3\1-1-|
G|---------------|-------------|

e|-------------------|----------------|
B|-/8--8-8/(10)-8----|-10-/13--12.....|
G|-------------------|----------------|

========
Now into the next bit. The lead continues from above

GUITAR ONE
e|------------------------------|----------------------------------------|
B|-13----12-10--12-13-15--13-12-|-13-12-10---12-13--12-13-/15---13-15-17-|
G|------------------------------|----------------------------------------|

e|------------------------------|-----------------------------------------------|
B|-13----12-10--12-13-15--13-12-|-13-12-10---12-13--12-13-/15---13-15-17\-10~---|
G|------------------------------|-----------------------------------------------|

GUITAR TWO chords:
e|----------------|
B|-1---1---3---1--|
G|-2---2---2---2--|
D|-2---3---0---3--|
A|-0---0---0---0--|
E|----------------|repeat

========
repeat above again
then...
========

e|-0----0--0-0---------0---0-0-0---0--0--0-0-|
B|-0----0--0-0---------1---1-1-1---1--1--1-1-|
G|-0----0--0-0------0--0---0-0-0---0--0--0-0-|
D|-2----2--2-2---------2---2-2-2---2--2--2-2-|
A|-2----2--2-2----2----3---3-3-3---3--3--3-3-|
E|-0----0--0-0-------------------------------| X4

then..

==========================
GUITAR ONE
e|-----------------------|-----------------|-----------------|-----------------|
B|-----------------------|-----------------|-----------------|-----------------|
G|-----------------------|-----------------|-----------------|-----------------|
D|-------2-2-2-2-2-2-2-2-|-2-2-2-2-2-2-2-2-|-2-2-2-2-2-2-2-2-|-----------------|
A|-------2-2-2-2-2-2-2-2-|-3-3-3-3-3-3-3-3-|-0-0-0-0-0-0-0-0-|-5-5-5-5-4-4-4-4-|
E|-------0-0-0-0-0-0-0-0-|-----------------|-----------------|-3-3-3-3-2-2-2-2-|
|
|
GUITAR TWO
e|-----------------------|-----------------|-----------------|-----------------|
B|-----------------------|-----------------|-----------------|-----------------|
G|---9-11-12~--------9-11|-12~---------9-11|-12~---------9-11|-12~--11-----9-11|
D|-9---------------9-----|-----------9-----|-----------9-----|-----------9-----|

GUITAR ONE
e|-----------------|-----------------|-----------------|-----------------|
B|-----------------|-----------------|-----------------|-----------------|
G|-----------------|-----------------|-----------------|-----------------|
D|-2-2-2-2-2-2-2-2-|-2-2-2-2-2-2-2-2-|-2-2-2-2-2-2-2-2-|-----------------|
A|-2-2-2-2-2-2-2-2-|-3-3-3-3-3-3-3-3-|-0-0-0-0-0-0-0-0-|-5-5-5-5-4-4-4-4-|
E|-0-0-0-0-0-0-0-0-|-----------------|-----------------|-3-3-3-3-2-2-2-2-|
|
|
GUITAR TWO
e|-----------------|-----------------|-----------------|-----------------|
B|-----------------|-----------------|-----------------|---------------10|
G|--12~--------9-11|-12~---------9-11|-12~---------9-11|-12~--11--11-12--|
D|-----------9-----|-----------9-----|-----------9-----|-----------------|

GUITAR ONE
e|-----------------|-----------------|-----------------|-----------------|
B|-----------------|-----------------|-----------------|-----------------|
G|-----------------|-----------------|-----------------|-----------------|
D|-2-2-2-2-2-2-2-2-|-2-2-2-2-2-2-2-2-|-2-2-2-2-2-2-2-2-|-----------------|
A|-2-2-2-2-2-2-2-2-|-3-3-3-3-3-3-3-3-|-0-0-0-0-0-0-0-0-|-5-5-5-5-4-4-4-4-|
E|-0-0-0-0-0-0-0-0-|-----------------|-----------------|-3-3-3-3-2-2-2-2-|
|
|
GUITAR TWO
e|-----------------|-----------------|-----------------|-----------------|
B|-12~-----------10|-12~-----------10|-12~-----------10|-12~--10-------10|
G|---------11-12---|---------11-12---|---------11-12---|---------11-12---|
D|-----------------|-----------------|-----------------|-----------------|

GUITAR ONE
e|-----------------|-----------------|-----------------|-----------------|
B|-----------------|-----------------|-----------------|-----------------|
G|-----------------|-----------------|-----------------|-----------------|
D|-2-2-2-2-2-2-2-2-|-2-2-2-2-2-2-2-2-|-2-2-2-2-2-2-2-2-|-----------------|
A|-2-2-2-2-2-2-2-2-|-3-3-3-3-3-3-3-3-|-0-0-0-0-0-0-0-0-|-5-5-5-5-4-4-4-4-|
E|-0-0-0-0-0-0-0-0-|-----------------|-----------------|-3-3-3-3-2-2-2-2-|
|
|
GUITAR TWO
e|-----------------|-----------------|-----------------|-----------------|----|
B|-12~-----------10|-12~-----------10|-12~-----------10|-12~-----10~-----|-8~-|
G|---------11-12---|---------11-12---|---------11-12---|-----------------|----|
D|-----------------|-----------------|-----------------|-----------------|----|

(NOTE: there is also another riff playing over the second half of this bridge:
e|-----------------|-----------------|-----------------|--------------------|
B|-----------------|-----------------|-----------------|--------------------|
G|-----------------|-----------------|-----------------|--------------------|
D|-----------------|-----------------|-----------------|--------------------|
A|------7-9-10-----|-------7-9-10----|-------7-9-10----|-/12-10-9--9h10p9-7-|
E|----7------------|-----7-----------|-----7-----------|--------------------|)

then back to:
e|-0----0--0-0---------0---0-0-0---0--0--0-0-|
B|-0----0--0-0---------1---1-1-1---1--1--1-1-|
G|-0----0--0-0------0--0---0-0-0---0--0--0-0-|
D|-2----2--2-2---------2---2-2-2---2--2--2-2-|
A|-2----2--2-2----2----3---3-3-3---3--3--3-3-|
E|-0----0--0-0-------------------------------| X4

=========
OUTRO:
e|---------------------------------|
B|-----1-------1-------1-------0---|
G|-------------------0---0---0---0-|
D|---2---2---3---3---------0-------|
A|-0-------0-------3---------------|
E|---------------------------------|repeat 4 times, the 4th gradually slower

finish on
e|-0--|
B|-1--|
G|-2--|
D|-2--|
A|-0--|
E|----|

eNcor3
Идущий на зов
Идущий на зов
Аватара пользователя
 
Профиль
Сообщения: 194
Зарегистрирован:
08 ноя 2005, 01:31
Откуда: Hollywood Hills
Пол: Не определен
Блог: Перейти к блогу (0)
Reputation point: 8

Новое сообщение eNcor3 » 08 ноя 2005, 03:53 |

В "Theme of Laura" можно в главной теме соляк подрихтовать, нет? А так - все суперски!!!
"Stadium Arcadium the mirror to the Moon
Well I'm forming I'm warming to you..."

Mark Montano
Темный Разум
Темный Разум
Аватара пользователя
 
Профиль
Сообщения: 963
Зарегистрирован:
02 июл 2008, 22:48
Откуда: Беларусь
Пол: Мужской
Блог: Перейти к блогу (0)
Reputation point: 261

Новое сообщение Mark Montano » 25 фев 2009, 18:46 |

Хм… как кому, а мне удобней по табулатуре играть. :)
Люди, выложите, пожалуйста сюда ещё табов по осту из серии игр «Silent Hill», или подскажите, где можно их достать? :roll:

Pac Man
Silent Hill
Silent Hill
Аватара пользователя
 
Профиль
Сообщения: 2920
Зарегистрирован:
27 сен 2005, 02:19
Пол: Не определен
Блог: Перейти к блогу (0)
Reputation point: 408

Новое сообщение Pac Man » 25 фев 2009, 19:18 |

-
Последний раз редактировалось Pac Man 29 окт 2012, 16:51, всего редактировалось 1 раз.

Knives Out
Заглянувший за Грань
Заглянувший за Грань
Аватара пользователя
 
Профиль
Сообщения: 1603
Зарегистрирован:
15 мар 2006, 21:54
Откуда: Из Холодильника
Пол: Не определен
Блог: Перейти к блогу (0)
Reputation point: 270

Новое сообщение Knives Out » 25 фев 2009, 19:58 |

Pac Man,

0_0

не понял.. тут выложили табы + аккорды а вы тут шутите про непонятно что
Изображение
We lose our hair, our teeth! Our bloom, our ideals. (c)

Mark Montano
Темный Разум
Темный Разум
Аватара пользователя
 
Профиль
Сообщения: 963
Зарегистрирован:
02 июл 2008, 22:48
Откуда: Беларусь
Пол: Мужской
Блог: Перейти к блогу (0)
Reputation point: 261

Новое сообщение Mark Montano » 04 мар 2009, 17:39 |

Ребят, вы не подскажите, где мне можно найти табы на песню «Shot Down In Flames» из «SH Zero»? Только именно табы, а не аккорды, пожалуйста! :)

Knives Out
Заглянувший за Грань
Заглянувший за Грань
Аватара пользователя
 
Профиль
Сообщения: 1603
Зарегистрирован:
15 мар 2006, 21:54
Откуда: Из Холодильника
Пол: Не определен
Блог: Перейти к блогу (0)
Reputation point: 270

Новое сообщение Knives Out » 04 мар 2009, 19:27 |

Mark Montano, кто то подбирал... вконаткте, на ютубе..
Изображение
We lose our hair, our teeth! Our bloom, our ideals. (c)

NEELY
Одержимый Знанием
Одержимый Знанием
Аватара пользователя
 
Профиль
Сообщения: 1279
Зарегистрирован:
12 июл 2006, 16:57
Пол: Не определен
Блог: Перейти к блогу (0)
Reputation point: 203

Новое сообщение NEELY » 04 мар 2009, 20:21 |

Mark Montano писал(а):Ребят, вы не подскажите, где мне можно найти табы на песню «Shot Down In Flames» из «SH Zero»? Только именно табы, а не аккорды, пожалуйста!

Лови

Knives Out
Заглянувший за Грань
Заглянувший за Грань
Аватара пользователя
 
Профиль
Сообщения: 1603
Зарегистрирован:
15 мар 2006, 21:54
Откуда: Из Холодильника
Пол: Не определен
Блог: Перейти к блогу (0)
Reputation point: 270

Новое сообщение Knives Out » 04 мар 2009, 20:25 |

NEELY, 0_0
в том году не было вообще
Изображение
We lose our hair, our teeth! Our bloom, our ideals. (c)

NEELY
Одержимый Знанием
Одержимый Знанием
Аватара пользователя
 
Профиль
Сообщения: 1279
Зарегистрирован:
12 июл 2006, 16:57
Пол: Не определен
Блог: Перейти к блогу (0)
Reputation point: 203

Новое сообщение NEELY » 04 мар 2009, 20:33 |

Ну значит добрые люди постарались.
Изображение

Mark Montano
Темный Разум
Темный Разум
Аватара пользователя
 
Профиль
Сообщения: 963
Зарегистрирован:
02 июл 2008, 22:48
Откуда: Беларусь
Пол: Мужской
Блог: Перейти к блогу (0)
Reputation point: 261

Новое сообщение Mark Montano » 05 мар 2009, 19:34 |

NEELY, спасибо огромное! :D Вот только теперь назревает вопрос, где достать нормальную версию Guitar Pro с кейгеном? :roll:

Knives Out
Заглянувший за Грань
Заглянувший за Грань
Аватара пользователя
 
Профиль
Сообщения: 1603
Зарегистрирован:
15 мар 2006, 21:54
Откуда: Из Холодильника
Пол: Не определен
Блог: Перейти к блогу (0)
Reputation point: 270

Новое сообщение Knives Out » 05 мар 2009, 19:51 |

на торрентс ru например
Изображение
We lose our hair, our teeth! Our bloom, our ideals. (c)

Mark Montano
Темный Разум
Темный Разум
Аватара пользователя
 
Профиль
Сообщения: 963
Зарегистрирован:
02 июл 2008, 22:48
Откуда: Беларусь
Пол: Мужской
Блог: Перейти к блогу (0)
Reputation point: 261

Новое сообщение Mark Montano » 06 мар 2009, 19:13 |

Knives Out, да уж, найти-то может и получится, а вот скачать. ](*,)
Ну лан, буду искать. :)

Mark Montano
Темный Разум
Темный Разум
Аватара пользователя
 
Профиль
Сообщения: 963
Зарегистрирован:
02 июл 2008, 22:48
Откуда: Беларусь
Пол: Мужской
Блог: Перейти к блогу (0)
Reputation point: 261

Новое сообщение Mark Montano » 13 мар 2009, 02:10 |

Если кому понадобится, здесь отличная зарегистрированая версия «Guitar Pro 5.2» :D
http://btjunkie.org/torrent/Guitar-Pro- ... 3316b3bd65


Akira Yamaoka - You're Not Here
From SH 3
Lyrics by Nora Stevens Heath

Main Riff
eb|---------------------------------------------|
Bb|---------------------------------------------|
Gb|---------------------------------------------|
Db|-----0-------0-------0-------0---------------|
Ab|---7---7---7---7---7---7---7---7-------------|
Eb|-5-------5-------5-------5-------5-----------|

eb|---------------------------------------------|
Bb|---------------------------------------------|
Gb|---------------------------------------------|
Db|------0---------0---------0---------0--------|
Ab|---10---10---10---10---10---10---10---10-----|
Eb|-8---------8---------8---------8---------8---|

Lead bit 1 (repeat over main riff)
eb|---------------------------------|-12-----------------------------------|
Bb|---------------------------------|----12~-------------------------------|
Gb|----12~--------------------------|--------------------------------------|
Db|-12------------------------------|--------------------------------------|
Ab|---------------------------------|--------------------------------------|
Eb|---------------------------------|--------------------------------------|

second lead bit (0:14)
eb|---------------------------------|--------------------------------------|
Bb|---------------------------------|--------------------------------------|
Gb|---------------------------------|--------------------------------------|
Db|---------------------------------|--------------------------------------|
Ab|------------------------7--------|-10--------------12------7----10------|
Eb|--------------5----8-------------|--------------------------------------|

eb|---------------------------------|--------------------------------------|
Bb|---------------------------------|--------------------------------------|
Gb|---------------------------------|--------------------------------------|
Db|---------------------------------|--------------------------------------|
Ab|------------------------7--------|-10-----------------------------------|
Eb|-5------------5----8-------------|-----------------5-------3------------|

For the verse, play the main riff above.
next lead bit 0:42 (with delay effects)
eb|-----------0------------------|--------------0-----------------------|
Bb|------1-----------------------|--------1-----------------------------|
Gb|-2----------------------------|-0------------------------------------|
Db|------------------------------|--------------------------------------|
Ab|------------------------------|--------------------------------------|

Eb|------------------------------|--------------------------------------|
eb|------------------------------|----12-----12-----12----12----12-----|
Bb|---13----15----13--13---------|-13-----13-----13----13----13----13--|
Gb|-14---------------------------|-------------------------------------|
Db|------------------------------|-------------------------------------|
Ab|------------------------------|-------------------------------------|
Eb|------------------------------|-------------------------------------|

pre-chorus bit
GUITAR ONE
eb|-----------------|-----------------|-----------------|------------------|
Bb|-----------------|-----------------|-----------------|------------------|
Gb|-7---------------|-5---------------|-7---------------|-5----------------|
Db|-7---------------|-5---------------|-7---------------|-5----------------|
Ab|-5---------------|-3---------------|-5---------------|-3----------------|
Eb|-----------------|-----------------|-----------------|------------------|

eb|-----------------|-----------------|-----------------|------------------|
Bb|-----------------|-----------------|-----------------|------------------|
Gb|-----------------|------------9----|-----------------|-------------9----|
Db|-----------------|-10-----------10-|-----------------|-10------------10-|
Ab|-----------10-12-|-----------------|-----------10-12-|------------------|
Eb|---10-12-13------|-----------------|---10-12-13------|------------------|

eb|-----------------|-----------------|-----------------|------------------|
Bb|-----------------|-----------------|-----------------|------------------|
Gb|-7---------------|-5---------------|-4---------------|---------4.--4.---|
Db|-7---------------|-5---------------|-4---------------|---------4.--4.---|
Ab|-5---------------|-3---------------|-2---------------|---------2.--2.---|
Eb|-----------------|-----------------|-----------------|------------------|

eb|-----------------|-----------------|-----------------|------------------|
Bb|-----------------|-----------------|-----------------|------------------|
Gb|-----------------|------------9----|-----------------|------------------|
Db|-----------------|-10-----------10-|-9---------------|---------9.--9.---|
Ab|-----------10-12-|-----------------|-----------------|---------9.--9.---|
Eb|---10-12-13------|-----------------|-----------------|------------------|
GUITAR TWO


Chorus thing (if you can call it that)
GUITAR ONE
Amin G F G Amin G F Emin
eb|-----0-------3---------------3---|-----0-------3-------------------|
Bb|---1---1---0---0-----1-----0---0-|---1---1---0---0-----1-------0---|
Gb|-2-------0---------2-----0-------|-2-------0---------2-------0---0-|
Db|-----------------3-----3---------|-----------------3-----3-2-------|
Ab|---------------------------------|---------------------------------|
Eb|---------------------------------|---------------------------------|

eb|---------------------------------|---------------------------------|
Bb|---------------------------------|---------------------------------|
Gb|---------------------------------|---------------------------------|
Db|-7~------9~------10~---12~-------|-7~------------------------------|
Ab|---------------------------------|---------------------------------|
Eb|---------------------------------|---------------------------------|
GUITAR TWO (weird delay and flange effects)

eb|-0-|
Bb|-0-|
Gb|-0-|
Db|-2-|
Ab|-2-|
Eb|-0-|


at 1:43 go back to the main riff
SOLO: (2:02)
(w/effects)
eb|----------------------------------|------------------------------|
Bb|-x-8--8--8--8---10----------------|-10--10----8-8-8--8-----------|
Gb|-x-7--7--7--7---9-----------------|-9---9-----7-7-7--7-----------|
Db|----------------------------------|------------------------------|
Ab|----------------------------------|------------------------------|
Eb|----------------------------------|------------------------------|

eb|-------------------------------|---------------------------------|
Bb|-8--8--10-10-10--10------------|-10--10----8--8--8-8--8----------|
Gb|-7--7--9--9--9---9-------------|-9---9-----7--7--7-7--7--/-------|
Db|-------------------------------|---------------------------------|
Ab|-------------------------------|---------------------------------|
Eb|-------------------------------|---------------------------------|

eb|-12-12-12-10-10-10-12-12-12-10-10-10-12-12-10-10----|
Bb|-10-10-10-10-10-10-10-10-10-10-10-10-10-10-10-10----|
Gb|----------------------------------------------------|
Db|----------------------------------------------------|
Ab|----------------------------------------------------|
Eb|----------------------------------------------------|
(that bit isn't accurate, strum it how you think it sounds right)

THEN
eb|-/--------------------------------------------------------|
Bb|----------------------------------------------------------|
Gb|----9---10---7---9---5---9/10---12---12-10---10-9---------|
Db|----------------------------------------------------------|
Ab|----------------------------------------------------------|
Eb|----------------------------------------------------------|

eb|---------------------------------------------/------|
Bb|----------------------------------------------------|
Gb|-9---10---7---9-------9/10---12---10---9------------|
Db|----------------------------------------------------|
Ab|----------------------------------------------------|
Eb|----------------------------------------------------|

repeat this thing for a bit:
eb|-12-12-12-10-10-10-12-12-12-10-10-10-12-12-10-10----|
Bb|-10-10-10-10-10-10-10-10-10-10-10-10-10-10-10-10----|

then:
eb|8-8-8-8-8-8-8-8-8-8-8-8-8-8-8-8-7-7-7-7-7-7-7-7-10-10-10-10-10-10-10-10-|
Bb|8-8-8-8-8-8-8-8-8-8-8-8-8-8-8-8-8-8-8-8-8-8-8-8-8--8--8--8--8--8--8--8--|
Gb|------------------------------------------------------------------------|
Db|------------------------------------------------------------------------|
Ab|------------------------------------------------------------------------|
Eb|------------------------------------------------------------------------|

eb|-17-17-17-17-17-17-17-17-17-17-17-17-17-17-17-17-|
Bb|-17-17-17-17-17-17-17-17-17-17-17-17-17-17-17-17-|
Gb|-------------------------------------------------|
Db|-------------------------------------------------|
Ab|-------------------------------------------------|
Eb|-------------------------------------------------|

eb|-19-19-19-19-19-19-21-21-21-21-21-21-21\-----|
Bb|-17-17-17-17-17-17-17-17-17-17-17-17-17------|
Gb|---------------------------------------------|
Db|---------------------------------------------|
Ab|---------------------------------------------|
Eb|---------------------------------------------|

eb|---------------------------------|--------------------------------|
Bb|-8--10-10--10-10------------10---|-10------8-8-x-8-8-x-8-------8--|
Gb|-7--9--9---9--9-------------9----|-9-------7-7-x-7-7-x-7-------7--|
Db|---------------------------------|--------------------------------|
Ab|---------------------------------|--------------------------------|
Eb|---------------------------------|--------------------------------|
repeat, then

eb|----------------------------------------------------|
Bb|----------------------------------------------------|
Gb|-9---10---7---9-------9/10---12---10---9------------|
Db|----------------------------------------------------|
Ab|----------------------------------------------------|
Eb|----------------------------------------------------|
repeat until fade...

Vra4
Спутник Тумана
Спутник Тумана
Аватара пользователя
 
Профиль
Сообщения: 292
Зарегистрирован:
30 дек 2007, 20:25
Откуда: оттуда
Пол: Не определен
Пользователь заблокирован
Блог: Перейти к блогу (0)
Reputation point: 39

Новое сообщение Vra4 » 13 мар 2009, 15:09 |

ноты есть в гитар про этой песни
Пирамидоголовый

Он же Пирамидхэд (Pyramidhead) и Бугимен (Boogieman). Самый популярный и узнаваемый персонаж серии, являющийся де-факто ее символом. Собственно, это не совсем персонаж, а монстр, имеющий вид здоровенного мужика в фартуке и с напяленной на черепушку чугунной пирамидой размером со среднюю ванну. Смотрит на всех, как на говно.


Вернуться в Музыка Silent Hill

Кто сейчас на конференции

Сейчас этот форум просматривают: нет зарегистрированных пользователей и гости: 1

cron